lincoln heights high school san diego

  • Guitar tabs explorer
  • Sign up
  • Log in

  • Search
  • Tabs & chords

    • Sign up
    • Log in
    • Chords diagram
    • Submit tabs and chords
    • How to read tabs

Search tabs and chords

Browse bands and artists

A B C D E F G H I J K L M N O P Q R S T U V W X Y Z #

Log in

[ Register here | Forgot password ]

Guitar Tabs Explorer

background-size: auto, 140%; background-position: center, center;” >

Print
Share

Bloom tab by The Paper Kites

Bookmark

Add to your songbook

Click to rate
  • One star rating

    • One star rating Poor
    • One star rating Not so good
    • One star rating Worth learning
    • One star rating Accurate
    • One star rating Excelent

Be the first to rate

Comments

Add and view comments

Submit

Submit The Paper Kites chords and tabs here.

Other versions

Other versions of Bloom

The Paper Kites guitar tabs for Bloom

Guitar tabs with lyrics

IntroGuitar 1 1 + 2 + 3 + 4 + 1 + 2 + 3 + 4 +

e|---------------------------------------------------------------------------|
B|-1---------1-----------1-------1-------1-------1-------1-------------------|
G|-------0-------0---------------------------0---------0-----0---------------|
D|-----2-------2-------2-------0-------0-------0---0h2-----2---0-------------|
A|-0-------0-------0-------0h2-----2h3-----3---------------------------------|
E|---------------------------------------------------------------------------| 1 + 2 + 3 + 4 + 1 + 2 + 3 + 4 +
e|---------------------------------------------------------------------------|
B|-3---------3-----1-------1-------0---------0-----0---------0---------------|
G|-------0---------------0---------------0---------------0-------------------|
D|-----0-------0-------0-------0-------0-------0-------0-------0-------------|
A|---------------------------------------------------------------------------|
E|-3-------3-------3-------3-------3-------3-------3-------3-----------------| 1 + 2 + 3 + 4 + 1 + 2 + 3 + 4 +
e|---------------------------------------------------------------------------|
B|-1---------1-----1-------------1-------1-------1-------1-------------------|
G|-------0---------------0-------------------0---------0-----0---------------|
D|-----2-------2-------2-------0-------0-------0---0h2-----2---0-------------|
A|-0-------0-------0-------0h2-----2h3-----3---------------------------------|
E|---------------------------------------------------------------------------|

 1 + 2 + 3 + 4 + 1 + 2 + 3 + 4 +
e|---------------------------------------------------------------------------|
B|-3---------3-----1---------1-----0-----------------------------------------|
G|-------0---------------0---------------------------------------------------|
D|-----0-------0-------0-------0---------------------------------------------|
A|---------------------------------------------------------------------------|
E|-3-------3-------3-------3-------3-----------------------------------------| In the morning when i wake...
Guitar 2 (During Intro) (Capo 6) 1 + 2 + 3 + 4 + 1 + 2 + 3 + 4 +
e|-----5/7-----5\3-----0---------------5/7-----5\3---------------------|
B|------------------------------------------------------3--------------|
G|-----2/4-----2\0---------------------2/4-----2\0---------------------|
D|---------------------2--------------------------------0--------------|
A|---------------------------------------------------------------------|
E|---------------------------------------------------------------------|
Verse/Chorus
Guitar 1 1 + 2 + 3 + 4 + 1 + 2 + 3 + 4 +
e|---------------------------------------------------------------------------|
B|-1---------1-----1-------------1-------1-------1-------1-------------------|
G|-------0---------------0-------------------0---------0-----0---------------|
D|-----2-------2-------2-------0-------0-------0---0h2-----2---0-------------|
A|-0-------0-------0-------0h2-----2h3-----3---------------------------------|
E|---------------------------------------------------------------------------| 1 + 2 + 3 + 4 + 1 + 2 + 3 + 4 +
e|---------------------------------------------------------------------------|
B|-3---------3-----1---------1-----0-----------------------------------------|
G|-------0---------------0---------------------------------------------------|
D|-----0-------0-------0-------0---------------------------------------------|
A|---------------------------------------------------------------------------|
E|-3-------3-------3-------3-------3-----------------------------------------|
Guitar 2 Solo

1 + 2 + 3 + 4 + 1 + 2 + 3 + 4 +
e|----------------------3--------------------------------------------|
B|--------------3h5------------5--3----------------------------------|
G|-----3/4--------------0----------------3/4-------------------------| Play Twice
D|--------------0h2------------2--0----------------------------------| x2
A|-----1/2-------------------------------1/2-------------------------|
E|-------------------------------------------------------------------|
1 + 2 + 3 + 4 + 1 + 2 + 3 + 4 +
e|----------------------3---------------5-----5/7--------------------|
B|--------------3h5------------5--3----------------------------------|
G|-----3/4--------------0---------------2-----2/4--------------------|
D|--------------0h2------------2--0----------------------------------|
A|-----1/2-----------------------------------------------------------|
E|-------------------------------------------------------------------|
1 + 2 + 3 + 4 + 1 + 2 + 3 + 4 +
e|----------------------3--------------------------------------------|
B|--------------3h5------------5--3------3/4-------------------------|
G|-----3/4--------------0--------------------------------------------|
D|--------------0h2------------2--0------1/2-------------------------|
A|-----1/2-----------------------------------------------------------|
E|-------------------------------------------------------------------|
1 + 2 + 3 + 4 + 1 + 2 + 3 + 4 +
e|-----------------3------3h5----5/7---------------------------------|
B|-----3-----5---------------------------5---------------------------|
G|-----------------0------0h2----2/4---------------------------------|
D|-----0-----2---------------------------2---------------------------|
A|-------------------------------------------------------------------|
E|-------------------------------------------------------------------|
1 + 2 + 3 + 4 + 1 + 2 + 3 + 4 +
e|-----5/7-----5\3-----0---------------5/7-----5\3-------------------|
B|------------------------------------------------------3------------|
G|-----2/4-----2\0---------------------2/4-----2\0-------------------|
D|---------------------2--------------------------------0------------|
A|-------------------------------------------------------------------|
E|-------------------------------------------------------------------|
1 + 2 + 3 + 4 + 1 + 2 + 3 + 4 +
e|-----------------3------3h5----5/7---------------------------------|
B|-----3-----5---------------------------5---------------------------|
G|-----------------0------0h2----2/4---------------------------------|
D|-----0-----2---------------------------2---------------------------|
A|-------------------------------------------------------------------|
E|-------------------------------------------------------------------|
1 + 2 + 3 + 4 + 1 + 2 + 3 + 4 +
e|-----5/7-----5\3-----0---------------5/7-----5\3-------------------|
B|------------------------------------------------------3------------|
G|-----2/4-----2\0---------------------2/4-----2\0-------------------|
D|---------------------2--------------------------------0------------|
A|-------------------------------------------------------------------|
E|-------------------------------------------------------------------|Verse 1 Am7 Cadd9In the morning when I wake C GAnd the sun is coming through, Am7 Cadd9Oh, you fill my lungs with sweetness, C GAnd you fill my head with you.Verse 2 Am7 Cadd9Shall I write it in a letter? C GShall I try to get it down? Am7 Cadd9Oh, you fill my head with pieces C GOf a song I can't get out.
Chorus Am7Can I be close to you? Cadd9 C GOoh-oo-oo-ooh, ooh. Am7Can I be close to you? Cadd9 C GOoh-oo-oo-ooh, ooh.
Verse 3 Am7 Cadd9Can I take it to a morning C GWhere the fields are painted gold Am7 Cadd9And the trees are filled with memories C GOf the feelings never told?Verse 4 Am7 Cadd9When the evening pulls the sun down, C GAnd the day is almost through, Am7 Cadd9Oh, the whole world is sleeping, C GAnd my world is you.
Chorus Am7Can I be close to you? Cadd9 C GOoh-oo-oo-ooh, ooh. Am7Can I be close to you? Cadd9 C GOoh-oo-oo-ooh, ooh.
*whistling* (same as Chorus)
Chorus Am7Can I be close to you? Cadd9 C GOoh-oo-oo-ooh, ooh. Am7Can I be close to you? Cadd9 C GOoh-oo-oo-ooh, ooh.
TAG Am7Can I be close to you? Cadd9 C GOoh-oo-oo-ooh, ooh.
************************************
| / slide up
| \ slide down
| h hammer-on
| p pull-off
| ~ vibrato
| + harmonic
| x Mute note
| B Bend
| pb Pre-bend
| br Bend release
| pbr Pre-bend release
| brb Bend release bend
Bookmark

Add to your songbook

Click to rate
  • One star rating

    • One star rating Poor
    • One star rating Not so good
    • One star rating Worth learning
    • One star rating Accurate
    • One star rating Excelent

Be the first to rate

Submit

Submit The Paper Kites chords and tabs here.

G Major

G Major guitar chord fingering

Cadd9

Cadd9 guitar chord fingering

C major

C major guitar chord fingering

B

B guitar chord fingering

Am7

Am7 guitar chord fingering

Other versions of Bloom

Bloom Chords

Comments

[ About us | Privacy notice ]